Menu Close

Ennullame Sthuthika Nee Parane – Guitar Tabs

Last updated on July 3rd, 2022 at 03:03 pm

Songwriter/Translator/Composer A M Kurian
Chords of Ennullame Sthuthika Nee Parane (എന്നുള്ളമേ സ്തുതിക്ക നീ പരനെ)


    Ennullame sthuthika nee parane
e|---------------------------------------|
B|---------------------------------------|
G|---------------------------------------|
D|--------2--0-----------0--0--0---------|
A|-----3--------3--2--3------------------|
E|--3------------------------------------|

    Than nanmakalkai sthuthikam sthuthikam
e|---------------------------------------|
B|---------------------------------------|
G|------------------------------------0--|
D|--0--0--2--0--------0--2------2--3-----|
A|--------------3--3---------------------|
E|---------------------------------------|

    Ennandarangame anudinavum
e|---------------------------------------|
B|---------------------------------------|
G|--0--0--2--0---------------------------|
D|--------------3--2--0------------------|
A|-----------------------3--0--0---------|
E|--------------------------------3------|

    Nandiyode padi pukazhtham
e|---------------------------------------|
B|---------------------------------------|
G|---------------------------------------|
D|--2--2--2-----0--0---------------------|
A|-----------3--------3--2--3------------|
E|---------------------------------------|

    Sura loka sukham vedinju    
e|---------------------------------------|
B|---------------------------------------|
G|--------0--2--0-----------0------------|
D|--2--3-----------3--2--3---------------|
A|---------------------------------------|
E|---------------------------------------|


    Ninne thedi vanna idayan
e|---------------------------------------|
B|---------------------------------------|
G|-----------2--0------------------------|
D|--0--2--3--------3--2--0--2------------|
A|---------------------------------------|
E|---------------------------------------|

    Thante Dehamenna thiraseela chindi
e|---------------------------------------|
B|---------------------------------------|
G|--------------0------------------------|
D|--0--2--3--3-----3--2--0--2--2--3--2---|
A|---------------------------------------|
E|---------------------------------------|

    Thava moksha margom thurannu
e|---------------------------------------|
B|---------------------------------------|
G|---------------------------------------|
D|--------0--0--2--0---------------------|
A|--2--3--------------3--2--3------------|
E|---------------------------------------|

5/5 - (1 vote)
Page hits: 50
Add to favourites (0)

No account yet? Register


സത്യവേദപുസ്തകം - Malayalam Bible
पवित्र बाइबिल - Hindi Bible


Like our Facebook page to stay in touch.

Search for Songs

Leave a Reply

Your email address will not be published. Required fields are marked *

19 − two =

This site is protected by reCAPTCHA and the Google Privacy Policy and Terms of Service apply.